Menu Site Uriah Heep



Написать администратору сайта


Play the guitar to the verses and solos like this:
 C Eb C Bb
E|-----------------------------|
B|-----------------------------|
G|-----------------------------| 
D|-5-5-5-5-5--8--5-5-5-5-5--3--| 
A|-3-3-3-3-3--6--3-3-3-3-3--1--| 
E|-----------------------------|
 C Eb C Bb
E|-----------------------------|
B|-----------------------------|
G|-----------------------------| 
D|-5-5-5-5-5--8--5-5-5-5-5--3--| 
A|-3-3-3-3-3--6--3-3-3-3-3--1--| 
E|-----------------------------|
 C Eb C Bb
E|-----------------------------|
B|-----------------------------|
G|-----------------------------| 
D|-5-5-5-5-5--8--5-5-5-5-5--3--| 
A|-3-3-3-3-3--6--3-3-3-3-3--1--| 
E|-----------------------------|
 C Eb C Bb
E|-----------------------------|
B|-----------------------------|
G|-----------------------------| 
D|-5-5-5-5-5--8--5-5-5-5-5--3--| 
A|-3-3-3-3-3--6--3-3-3-3-3--1--| 
E|-----------------------------|
 C Eb C Bb
E|-----------------------------|
B|-----------------------------|
G|-----------------------------| 
D|-5-5-5-5-5--8--5-5-5-5-5--3--| 
A|-3-3-3-3-3--6--3-3-3-3-3--1--| 
E|-----------------------------|
 G Bb G F
E|-----------------------------|
B|-----------------------------|
G|-----------------------------| 
D|-----------------------------| 
A|-5-5-5-5-5--8--5-5-5-5-5--3--| 
E|-3-3-3-3-3--6--3-3-3-3-3--1--|

 G Bb C
E|-----------------------------|
B|-----------------------------|
G|-----------------------------| 
D|---------------5-3---3-------| 
A|-5-5-5-5-5--8------5---5-4-3-| 
E|-3-3-3-3-3--6----------------|
So, let's start up with the song:

 LOVE MACHINE (Hensley)
guitar intro:
 C Eb C Bb
E|-------------------------------------|
B|-------------------------------------|
G|-------------------------------------| 
D|----------------1--------------------| 
A|-3p1---3p1---3-----3p1---3p1---3--1--| 
E|-----3-----3-----------3-----3-------|
 C Eb C Bb
E|-------------------------------------|
B|-------------------------------------|
G|-------------------------------------| 
D|----------------1--------------------| 
A|-3p1---3p1---3-----3p1---3p1---3--1--| 
E|-----3-----3-----------3-----3-------|
 C Eb Bb 
E|-------------------------------------|
B|-------------------------------------|
G|-------------------3p1---3p1---3-----| 
D|----------------1------3-----3-------| 
A|-3p1---3p1---3-------------------1-2-| 
E|-----3-----3-------------------------|
 C Eb Bb 
E|-------------------------------------|
B|-------------------------------------|
G|-------------------3p1---3p1---3-----| 
D|----------------1------3-----3-------| 
A|-3p1---3p1---3-------------------1-2-| 
E|-----3-----3-------------------------|

verse:
C Eb 
Lovely little lady
C Bb C Eb C Bb 
You got me on the run
 C Eb
You're a love machine
C Bb C Eb C Bb 
And you say that I'm your gun
 G Bb
But I don't care
G F G Bb C
'Cause I've got to know 
verse:
She said she were a loser
The kind that came off worse
So I had to try hard
To satisfy your thirst
But I don't care
'Cause I've got to know 
 guitar solo:
 C Eb C Bb C 
E|-------------------------------------------------|
B|-------------------------------------------------|
G|--------17-19b21---19b21-19b21-19b21-19b21-19b21-| 
D|-17h19-------------------------------------------| 
A|-------------------------------------------------| 
E|-------------------------------------------------|
 Eb C Bb C 
E|------------------------------------------------|
B|-----------------------------------------18b20--|
G|-19h21r19p17----17----17-17-----17----17--------| 
D|-------------19----19--------19----19-----------| 
A|------------------------------------------------| 
E|------------------------------------------------|
 Eb C Bb C
E|-------------------------------------------------18-|
B|-18p16----16----16-18b20-18p16----16----16-18b20----|
G|-------17----17----------------17----17-------------| 
D|----------------------------------------------------| 
A|----------------------------------------------------| 
E|----------------------------------------------------|
 Eb C Bb 
E|------------------------------------------15----15-|
B|-20r18p16----16------------------------18----18----|
G|----------17----17p15----15-17-17-17---------------| 
D|----------------------17---------------------------| 
A|---------------------------------------------------| 
E|---------------------------------------------------|
 G Bb G F
E|-17b19-17b19-17b19-17b19r17p15----15----15-15-----15----15-|
B|-------------------------------18----18--------18----18----|
G|-----------------------------------------------------------| 
D|-----------------------------------------------------------| 
A|-----------------------------------------------------------| 
E|-----------------------------------------------------------|
 G Bb C
E|-17b19-17b19-17b19-17b19r17p15-----15-13----13----------|
B|-------------------------------18--------15----15-14-13-|
G|--------------------------------------------------------| 
D|--------------------------------------------------------| 
A|--------------------------------------------------------| 
E|--------------------------------------------------------|

verse:
The only time she's happy
Is when the bullets fly
And she'll make you
Feel you're better
Than any other guy
And I don't care
'Cause I've got to know 
organ solo:
|C - - Eb|C - - Bb|C - - Eb|C - - Bb|
|C - - Eb|C - - Bb|C - - Eb|C - - Bb|
|G - - Bb|G - - F|G - - Bb|- - - -|C
verse:
Lovely little lady
You got me on the run
You're a love machine
And I'm trying to be your gun
And I don't care
'Cause I've got to know 
play the last tones of the guitar theme written on top
three times and stop at C# in the last round!!


Friends Site Uriah Heep
     



     
     
     
     
     
     
     
     
     
     
     
     
     
     
     
     
     
     
     
     
     
     
     
     
     
     
     
     
    Ken Hensley. He Came To Us One Evening....
     

 

 

Unofficial Russian Fan Site Uriah Heep 2007 © 2017