Menu Site Uriah Heep



Написать администратору сайта


JULY MORNING (Byron/Hensley) 
 Organ intro:
 chords -> | F/C | C | 
 tones -> | F-C-A-F-C-A-C-F | E-C-G-E-C-G-C-E |
 chords -> | F/C | C | 
 tones -> | C-A-F-C-A-F-A-C | E-C-G-E-C-G-C-E |
 chords -> | F/C | C | 
 tones -> | F-C-A-F-C-A-C-F | E-C-G-E-C-G-C-E |
 chords -> | F/C | C | 
 tones -> | C-A-F-C-A-F-A-C | E-C-G-E-C-G-C-E |
 
 Guitar solo opening:
 F/C C 
E|----------------------------------------------|
B|-16b18-16b18-16b18-16b18-16b18r16-13----13----|
G|-------------------------------------15-------| 
D|----------------------------------------------|
A|----------------------------------------------|
E|----------------------------------------------|
 F/C C 
E|-------------------------------------------15--|
B|-16b18-16b18-16b18-16b18-16b18r16-13----13-----|
G|-------------------------------------15--------| 
D|-----------------------------------------------|
A|-----------------------------------------------|
E|-----------------------------------------------|
 F/C C
E|-------------------------------------------12-------|
B|-------16-------16-------16-------16----------13----|
G|-15b17----15b17----15b17----15b17----15b17----------| 
D|----------------------------------------------------|
A|----------------------------------------------------|
E|----------------------------------------------------|
 F/C
E|-15b17-15b17-15b17-15b17-15b17-15b17-15b17-15b17-|
B|-------------------------------------------------|
G|-------------------------------------------------| 
D|-------------------------------------------------|
A|-------------------------------------------------|
E|-------------------------------------------------|
 
 C
E|-15b17-15b17-15b17-15b17-15b17-15b17----------|
B|-------------------------------------16-15-13-|
G|----------------------------------------------| 
D|----------------------------------------------|
A|----------------------------------------------|
E|----------------------------------------------|
chords (played twice)-> | F/C | C | F/C | C |
verse:
Cm Fm
There I was on a July morning
Bb Cm
Looking for love
With the strength
 Fm 
Of a new day dawning
Bb Cm
And the beautiful sun
verse:
At the sound
Of the first bird singing
I was leaving for home
With the storm
And the night behind me
And a road of my own
Chorus:
Eb Gm Ab-Bb 
With the day came the resolution
 Cm
I'll be looking for you
Eb
La la la la
Gm Ab-Bb
La la la la
 Cm - Fm - Bb 
La la laaaaaaa 
verse:
I was looking for love
In the strangest places
Wasn't a stone
That I left unturned
Must have tried more
Than a thousand faces
But not one was aware
Of the fire that burned
Chorus:
In my heart, in my mind, in my soul
La la la la etc..
Organ solo:
| Cm | Fm | Bb | Cm | <- played 4 times
Chorus:
In my heart, in my mind, in my soul
La la la la etc..
 
Bridge: (played twice)
Cm C Fm G
La-a-a La-a-a La-a-a Laaaaaa
 Guitar bridge:
 Cm D Fm Eb G Cm
E|------------------------------------------------|
B|------------------------------------------4-3---|
G|------------------------------------5-4-5-----5-| 
D|-5-------5-4---4--3p1-3-1p0-1-5p4-5-------------| <- played twice!
A|---6-3-6-----5----------------------------------|
E|------------------------------------------------|
verse:
There I was on a July morning
I was looking for love
With the strength
Of a new day dawning
And the beautiful sun
verse:
And at the sound
Of the first bird singing
I was leaving for home
With the storm
And the night behind me
Yeah, and a road of my own
Chorus:
With the day came the resolution 
I'll be looking for you
La la la la etc..

 Guitar bridge:
 Cm D Fm Eb G Cm
E|------------------------------------------------|
B|------------------------------------------4-3---|
G|------------------------------------5-4-5-----5-| 
D|-5-------5-4---4--3p1-3-1p0-1-5p4-5-------------| Repeat to fade
A|---6-3-6-----5----------------------------------|
E|------------------------------------------------|


Friends Site Uriah Heep
     



     
     
     
     
     
     
     
     
     
     
     
     
     
     
     
     
     
     
     
     
     
     
     
     
     
     
     
     
    Ken Hensley. He Came To Us One Evening....
     

 

 

Unofficial Russian Fan Site Uriah Heep 2007 © 2017