Menu Site Uriah Heep



Написать администратору сайта


 I Hear Voices (T.Bolder)
  Opening: |Em - - -|D - - -|C - - -|Bb - - -|Bb Bb Bb Bb..|
  Guitar intro on chords with repeat:
   Em    
D      G     A
E|----------------------------------------|
B|----------------------------------------|
G|----------------------------------------|
D|-9-9-9--7-7-7-----------etc..-----------|
A|-7-7-7--5-5-5--5--5--7--etc..-----------|
E|---------------3--3--5--etc..-----------|
  Play this guitar intro on every 3 first lines
  in the verses!
verse:
I feel the pressure pushing down on me
Can't face the world
Can't change the things I see
          Em
I got my hands in my pockets
 
D
Staring at the walls
    
C                Bb          Em
Can nobody help to escape from it all
Guitar intro
verse:
I hear voices in my head they taunt me
Can't lock them out inside my thoughts
They breathe in me
I got my hands in my pockets
Screaming at the walls
    
C                   Bb          B
Can nobody help me to escape from it all

chorus
            
C
I've got to run to be free, break the chains round my heart
Em           
D            Em              D            Em   
Take away the pain and the joy release the man from the boy
C
Run to be free, run from the heart
Em        D-Em              D-Em
Life will take you where it goes
        Bm
You can offer me salvation
C
Feed me when I call
Bb
Don't talk to me of sanity
       
B                  A
When I'm not quite here at all
  Guitar solo:
  
A
E|-------------------------------------------------------------|
B|-10-----11------12-------13-------14-------15-------16-------|
G|----9-8----10-9----11-10----12-11----13-12----14-13----15-14-|
D|-------------------------------------------------------------|
A|-------------------------------------------------------------|
E|-------------------------------------------------------------|
                     Em
E|----------15--------3-0-0-5-0-0-3-0-0-2-3--3-0-0-5-0-0-3-0-0-2-3-|
B|-17----------15b17-----------------------------------------------|
G|----16-15--------------------------------------------------------|
D|-----------------------------------------------------------------|
A|-----------------------------------------------------------------|
E|-----------------------------------------------------------------|
  
A
E|--------------------------------------------------------------|
B|--------------------------------------------------------------|
G|-14-------13-------12-------11-------10------9-----8-----7----|
D|----14-13----13-12----12-11----11-10----10-9---9-8---8-7--7-6-|
A|--------------------------------------------------------------|
E|--------------------------------------------------------------|
                       Em            
D
E|-------------------------------------------------------|
B|---------------------22b24r22-22b24--22b24r22p20----20-|
G|-6-----5-----4-----------------------------------21----|
D|---6-5---5-4---4-3-------------------------------------|
A|-------------------------------------------------------|
E|-------------------------------------------------------|
  
C                                               Bb
E|-------22-22-------22-22-------22-22-------22-22-------------18-|
B|-22b24-------22b24-------22b24-------22b24-------22b24-22-20----|
G|----------------------------------------------------------------|
D|----------------------------------------------------------------|
A|----------------------------------------------------------------|
E|----------------------------------------------------------------|

E|---------------|
B|-11-10-8-11---|
G|---------------|
D|--8--7-5--8---|
A|---------------|
E|---------------|

verse:
I've touched the sun
I felt its warmth in me
So you will never take away my dignity
'cause I've got my hands in my pockets
Fighting for my cause
Can nobody help me to escape from it all
chorus
I've got to run to be free, break the chains round my heart
Take away the pain and the joy release the man from the boy
Run to be free, run from the heart
Life will take you where it goes
Run to be free, break the chains round my heart
Take away the pain and the joy release the man from the boy
Run to be free, run from the heart
Life will take you where it goes
Run to be free, break the chains round my heart
Life will take you where it goes
Run to be free
Run from the heart
|Em - - -|D - - -|C - - -|Bb - - -|Bb Bb Bb Bb..|




Friends Site Uriah Heep
     



     
     
     
     
     
     
     
     
     
     
     
     
     
     
     
     
     
     
     
     
     
     
     
     
     
     
     
     
    Ken Hensley. He Came To Us One Evening....
     

 

 

Unofficial Russian Fan Site Uriah Heep 2007 © 2017