Menu Site Uriah Heep



Написать администратору сайта


First look here and to play these marked chords in the song: 
 C*: G*: 
E|-------------------------|
B|----1------------1-------|
G|---0------------0--------| 
D|--2------------0---------| 
A|-3------------2----------|
E|-------------------------|
 FREE ME (Hensley)
guitar intro:
E|-------------2----|
B|-------------3----|
G|-------------2----| 
D|-------4-----0----| 
A|-2-4-5---5-0------|
E|------------------|
 (Free me...free me..)
 
chorus:
 D Bm 
Free me, free me
 Em
Why won't you free me
 Bm
Free me from your spell
 D
Come on and free me
 Bm 
Why won't you free me
 Em
Come on and free me
 Bm
Free me from your spell

play the guitar intro here
verse:
 D
Why should I worry
 F#m
That you might not love me
 G
You're not the only love 
 D 
That I've ever had
 F#m 
Your sweet memory
 Bm 
Will always comfort me
 G A
So why should I be feeling sad
verse:
As far as I can tell
You knew so well
I was always
At the end of the line
I've loved you as much
As any man can
But not enough
To make you mine
bridge:
 G F#m Em
So long, easy rider
 C* G* D 
I know I'll miss you for awhile
 G
But sooner or later
A Bm
I know that I'll forget you
And I tell you babe
chorus:
Free me
Come on and free me
Why won't you free me
Free me from your spell
Oh babe, free me
Why won't you free me
Come on and free me
Free me from your spell

play the guitar intro here
guitar solo:
 F#m G D 
E|--------------------------------|
B|-7--8-10-12b14r12-----15--15-17-|
G|-------------------14-----------| 
D|--------------------------------| 
A|--------------------------------|
E|--------------------------------|
 Dbl lead from here!! 
 F#m Em D
E|----------------------------|
B|-17b19r17-15----------------|
G|-------------16b18r16-14-11-| 
D|----------------------------| <- guitar#1
A|----------------------------|
E|----------------------------|
 | |
E|-15b17r15-14----------------|
B|-------------15b17r15-14----|
G|-------------------------14-| 
D|----------------------------| <- guitar#2
A|----------------------------|
E|----------------------------|

verse:
We let a good love die
We let it pass us by
Though you tried to
Keep me hangin' on
But with all this doubt
It'll never work out
So tomorrow I'll be travellin' on
And saying:
bridge:
So long, easy rider
I know I'll miss you for awhile
But sooner or later
I know that I'll forget you
And I beg it babe
chorus:
Free me
Come on and free me
Why won't you free me
Free me from your spell
Come on and free me
I'm on my knees, babe
Free me
Why won't you free me
Free me from your spell
Oh babe, come on
Come on and free me
Why won't you free me
Free me from this spell


Friends Site Uriah Heep
     



     
     
     
     
     
     
     
     
     
     
     
     
     
     
     
     
     
     
     
     
     
     
     
     
     
     
     
     
    Ken Hensley. He Came To Us One Evening....
     

 

 

Unofficial Russian Fan Site Uriah Heep 2007 © 2017