Menu Site Uriah Heep



Написать администратору сайта


BETWEEN TWO WORLDS (Box/Lanzon)
Opening: |F#m - - - |D - - - |B - - - |B - - - |
         |F#m - - - |D - - - |B - - - |B - - - |

verse:
F#m           
D
You're not the only one
 
B                     E
Amongst the saints and sinners
F#m                  
D
There are those that we can see
     
B              E
And those no longer with us
F#m          
D
To take that walk again
     
E                 B
With someone you were close to
F#m            
D              C# 
On stage in the other world tonight
guitar:  |F#m - - - |D - - - |B - - - |B - - - |
         |F#m - - - |D - - - |B - - - |B - - - |

verse:
And there are many
Who will say it's speculation
We need to focus on
The sleeping generation
The healing vision
That extends beyond the pain
Will take you there and back again
D           F#m
Ah-ah-ah-ah ah-ah-ah-ah
G           C#
Ah-ah-ah-ah ah
D           F#m
Ah-ah-ah-ah ah-ah-ah-ah
D           G#
Ah-ah-ah-ah ah
guitar:
                      A-B                          A-B
E|------------------3---------------------------3-------|
B|-8-7---7-5---5-4------------8-7---7-5---5-4-----------|
G|-9-7---7-5---5-4------------9-7---7-5---5-4-----------| 
D|-9-7---7-5---5-4------------9-7---7-5---5-4-----------| 
A|------------------------------------------------------|
E|------------------------------------------------------|
guitar finger picking:
   Em9       
G       A     Em9         G     A
E|--------------------------------------------------|
B|--------------------------------------------------|
G|-------0------------------------0-----------------| 
D|-----4---4-------5------7-----4---4-------5-----7-| 
A|---2-------2---5------7-----2-------2---5-----7---|
E|-0-----------3------5-----0-----------3-----5-----|
    Em9       
G     A     Em9         G     A
E|--------------------------------------------------|
B|--------------------------------------------------|
G|-------0------------------------0-----------------| 
D|-----4---4-------5------7-----4---4-------5-----7-| 
A|---2-------2---5------7-----2-------2---5-----7---|
E|-0-----------3------5-----0-----------3-----5-----|

bridge:
Em9         G-A
I can remember
Em9            G-Em9
You were no stranger
        F#
As you came to me
Am   
Dreamers walking
Em9          G-A
And in that moment
Em9           G-Em9
Between two worlds
           F#
I saw the furthest star
Am
Exploding all around you
guitar:
                      A-B 
E|------------------3---------|
B|-8-7---7-5---5-4------------|
G|-9-7---7-5---5-4------------| 
D|-9-7---7-5---5-4------------| 
A|----------------------------|
E|----------------------------|
   a-ah  a-ah  a-ah a-a-ah    
bridge:
And through the journey
You spoke in silence
And you made it clear
Walk in peace now
Then you touched me
Revealing all upon your way         G-A
Inside the burning fountain of time
Em
C- D      
Of time ...
Em
G- A      
Of time ...
Em
C- D      
Of time ...
Em
G- A      
Of time ...
Em
C- D      
Of time ...
|Em - - - |C - - - |A - - - |A - - - |
guitar solo:
   F#m         
D         B
E|-----------------------------------------|
B|-17b19--17-15-14-------------------------|
G|------------------16-14-16--14----16b18--|
D|-------------------------------16--------|
A|-----------------------------------------|
E|-----------------------------------------|
   F#m         
D            B  
E|--------14-15-15b16--15-16-16b18--16-18-18b20--|
B|-17B19-----------------------------------------|
G|-----------------------------------------------|
D|-----------------------------------------------|
A|-----------------------------------------------|
E|-----------------------------------------------|

verse:
A time so real as the one
We share each day
The same dimension
Just a heartbeat away
In every part of you
There's so much exploration
Out on the edge of space and time
D           F#m
Ah-ah-ah-ah ah-ah-ah-ah
G           C#
Ah-ah-ah-ah ah
D           F#m
Ah-ah-ah-ah ah-ah-ah-ah
D           G#
Ah-ah-ah-ah ah
  guitar solo (wah-wah):
   F#m          
D            B
E|-------------------------------------------------------|
B|---------------------------------17--------------------|
G|-16b18--16-14-16b18--16-14-16b18----16b18-16-14--------|
D|------------------------------------------------16-14--|
A|-------------------------------------------------------|
E|-------------------------------------------------------|
   F#m            
D               B
E|-------------------------------------------------------------|
B|-17-15-14--------17-15-14------------------------------------|
G|----------16-14-----------14-16--14b16-14-13-14-13-----------|
D|---------------------------------------------------16p14h16--|
A|-------------------------------------------------------------|
E|-------------------------------------------------------------|
   F#m
E|-------------------------------------------------------|
B|-13h14p13----------13h14p13----------13h14p13----------|
G|----------16p14h16----------16p14h16----------16p14h16-|
D|-------------------------------------------------------|
A|-------------------------------------------------------|
E|-------------------------------------------------------|
  
D
E|-------------------------------------------------------|
B|-13h14p13----------13h14p13----------13h14p13----------|
G|----------16p14h16----------16p14h16----------16p14h16-|
D|-------------------------------------------------------|
A|-------------------------------------------------------|
E|-------------------------------------------------------|
  
B
E|--------------------------------------------|
B|-13h14p13----------13h14p13-----------------|
G|----------16p14h16----------16p14h16-16-----|
D|--------------------------------------------|
A|--------------------------------------------|
E|--------------------------------------------|
   F#m                        
D
E|---------------------------------------------------------|
B|-------------------17-17-17--------------------17-17-17--|
G|-16b18-16-14-16b18-----------16b18-16-14-16b18-----------|
D|---------------------------------------------------------|
A|---------------------------------------------------------|
E|---------------------------------------------------------|
  
B
E|-------------------------------------|
B|-17-15-14-15-17b19-17b19-------------|
G|-------------------------------------|
D|-------------------------------------|
A|-------------------------------------|
E|-------------------------------------|
   F#m                             
D  
E|-------14-14-------14-14-------14-------14-14-------14-14-|
B|-17b19-------17b19-------17b19----17b19-------17b19-------|
G|----------------------------------------------------------|
D|----------------------------------------------------------|
A|----------------------------------------------------------|
E|----------------------------------------------------------|
  
B
E|-------14-------14-14-------14-14---------------|
B|-17b19----17b19-------17b19---------------------|
G|------------------------------------16-14-------|
D|------------------------------------------16----|
A|------------------------------------------------|
E|------------------------------------------------|
   F#m        
D           B
E|----------------------------------------------------------------|
B|----------------------------------------------------------------|
G|-16-16-16-16-16-16-16-16-16p14----16p14----16p14----16p14-------|
D|-------------------------------16-------16-------16-------16-16-|
A|----------------------------------------------------------------|
E|----------------------------------------------------------------|
   F#m                    
D 
E|-17b19-17b19-17b19-17b19-17b19-17b19-17b19-17b19-|
B|-------------------------------------------------|
G|-------------------------------------------------|
D|-------------------------------------------------|
A|-------------------------------------------------|
E|-------------------------------------------------|
  
B
E|-17b19-17b19-17b19-17b19-17-14-14--|
B|-----------------------------------|
G|-----------------------------------|
D|-----------------------------------|
A|-----------------------------------|
E|-----------------------------------|
   F#m                                
D 
E|-16-14-14-17-14-14-19-14-14-17-14-14-16-14-14-17-14-14-19-|
B|----------------------------------------------------------|
G|----------------------------------------------------------|
D|----------------------------------------------------------|
A|----------------------------------------------------------|
E|----------------------------------------------------------|
                 
B
E|-14-14-17-14-14-16-14-14-17-14-14-19-14-14-17-14-14-16-|
B|-------------------------------------------------------|
G|-------------------------------------------------------|
D|-------------------------------------------------------|
A|-------------------------------------------------------|
E|-------------------------------------------------------|
                                     F#m
E|-14-14-17-14-14-19-14-14-17-14-14--14--|
B|---------------------------------------|
G|---------------------------------------|
D|---------------------------------------|
A|---------------------------------------|
E|---------------------------------------|



Friends Site Uriah Heep
     



     
     
     
     
     
     
     
     
     
     
     
     
     
     
     
     
     
     
     
     
     
     
     
     
     
     
     
     
    Ken Hensley. He Came To Us One Evening....
     

 

 

Unofficial Russian Fan Site Uriah Heep 2007 © 2017