Menu Site Uriah Heep



Написать администратору сайта




вновь альбатрос завис над головой
он словно жаркий воздух неподвижен
а там в глубинах набежавших волн
в коралловых пещерных лабиринтах
как эхо отзвуки времен далеких
грядут накатываясь на песок
всё в зелени и под водой

никто нам не укажет путь на землю
никто не знает почему куда
но что-то зрит во все глаза и тщится
и восхождение к свету начинает

по улице проходят незнакомцы
возможных встреч случайно избегая
и я есть ты а то что вижу это я
я за руку возьму тебя и поведу чрез земли
так помоги же мне понять что лучше

опять никто нас не зовет к движенью
никто не требует потупить очи
никто речей не молвит и не тщится
вкруг солнца не летит никто

безоблачье всегда как вижу я тебя проснувшись
поняв и пригласив меня восстать от сна
сквозь блеск окна в стене
на крыльях солнечных лучей проистекает
мильон сверкающих посланцев утра

и колыбельных не поет никто мне
никто не заставляет смежить очи
и окон зев пошире открывая
к тебе взываю я чрез небеса





Time of Revelation (Box/Lanzon)
     (Moving to a fantasy world)
  Guitar intro: (played twice)  
   Am                                                    Am-F-G-E
E|---------------------------------------------------------------|
B|---------1-------------------------------1---------------------|
G|-0h2p0-----2--0h2p0---0-2---0-2--0h2p0-----2--0h2p0------------|
D|-------2------------2-----2------------2------------2----------|
A|---------------------------------------------------------------|
E|---------------------------------------------------------------|
     verse:
     Am
     Won't you take a chance my brother
                                
F  - G-E
     Follow me to a time of revelation
      Am
     Can't you see that destiny will take a turn
                         
F       G-E               Am                    
     And show there's no need to fight - 'cos you know it's right

     chorus:
            Dm                   
C  - G
     And I finally see where I'm going
        Dm                    
C   - G
     I finally know what I'm knowing
      Dm              
C     E      Am
     Now our journey's only just began

     Guitar intro
     verse:
     You won't need to ask forgiveness
     What you find will be your inspiration
     You don't have to pray for glory
     All is equal on more pain you know it's true it's up to you
     chorus:
     'Cos I finally see where I'm going
     I finally know what I'm knowing
     Now our journey's only just began
    
     bridge:
     Am
     Over the bridge where you start to believe
                             
D- G
     Down at the edge of the rainbow
      Am
     Dark is the night though it's in another time
                                D-E
     Follow the light of your shadow

   Guitar solo:
   Bm       
E        Bm        F#       G          E       Bm
E|-----------12-----------------14-12--------------12-------------|
B|-12--14-15----15-14-12--14-15-------15-12--14-15----15-14-12----|
G|-------------------------------------------------------------11-|
D|----------------------------------------------------------------|
A|----------------------------------------------------------------|
E|----------------------------------------------------------------|
   Bm      
E        Bm       F#       G        E        Bm  C    G
E|-17-15-14----------19-17-15-14-------21-19-17----19-21-22-22b24-22-|
B|----------17-15-15-------------17-17----------20-------------------|
G|-------------------------------------------------------------------|
D|-------------------------------------------------------------------|
A|-------------------------------------------------------------------|
E|-------------------------------------------------------------------|
     verse:
     Right or wrong there is no reason
     There will be no hidden destination
     With the strength that you discover
     You can show the way how it was meant to be for all to see
     chorus:
     'Cos I finally see where I'm going
     I finally know what I'm knowing
     Now our journey's only just began
     bridge
     Over the bridge where you start to believe
     Down at the edge of the rainbow
     Dark is the night though it's in another time
     Follow the light of your shadow
   Guitar solo:
   Bm       
E        Bm        F#       G          E       Bm - C-G
E|-----------12-----------------14-12--------------12-------------|
B|-12--14-15----15-14-12--14-15-------15-12--14-15----15-14-12----|
G|-------------------------------------------------------------11-|
D|----------------------------------------------------------------|
A|----------------------------------------------------------------|
E|----------------------------------------------------------------|
    bridge
     Over the bridge where you start to believe
     Down at the edge of the rainbow
     Dark is the night though it's in another time
     Follow the light of your shadow
    bridge
     Over the bridge where you start to believe
     Down at the edge of the rainbow
     Dark is the night though it's in another time
     Follow the light of your shadow



Friends Site Uriah Heep
     



     
     
     
     
     
     
     
     
     
     
     
     
     
     
     
     
     
     
     
     
     
     
     
     
     
     
     
     
    Ken Hensley. He Came To Us One Evening....
     

 

 

Unofficial Russian Fan Site Uriah Heep 2007 © 2017