Menu Site Uriah Heep



Написать администратору сайта


THE WIZARD (Bassline)
As recorded by Uriah Heep(From the 1972 Album DEMONS AND WIZARDS)
Transcribed by Michael White Words and Music by Mark 
Clarke/Ken HensleyArranged by Michael White Gtr I (E A D G) - 'Bass Guitar'
 Intro
 Q=130
 4/4
 Gtr I
 Wx12
|---------||
|---------||
|---------||
|---------||

 Verse 1
 Wx17 H E E Q
|----------------------|------------------||
|----------------------|------------------||
|----------------------|--------(7)-/10--||
|----------------------|------------------||

 Verse 2
 C Csus4 C CsusC C5 Bb F/A C
 Q Q Q +E E e E E E E E Q Q. E Q. S S Q E E E E E E
|----------------|---------5------|-----------------|----------------|
|----------------|-----5-----5----|-----------------|----------------|
|-3--3--3--(3)---|-3-3---3-----3--|-1----1------3s5-|-3--3h5-3h5-----|
|--------------3-|----------------|--------1--------|--------------3-|

 C Csus4 C CsusC C5 Bb F/A C
 Q Q Q +E E E E E E E E Q Q. E Q. E E Q E E E E E
|----------------|---------5------|---------------|--------5-7-5---|
|----------------|-----5-----5----|---------------|----------------|
|-3--3--3--(3)---|-3-3---3-----3--|-1----1--------|-3-3--3---------|
|--------------3-|----------------|--------1----1-|--------------3-|

 Bb F/A Bb F/A
 H. +E E E E e E Q. E Q. E Q. E E E E E Q Q
|---------------|-----------------|---------------|--------------|
|---------------|-3---------------|---------------|-----3---3--3-|
|-1-------(1)-1-|---3-------------|-1----1-1----1-|---3---3------|
|---------------|-----1---1-----1-|---------------|-5------------|

 C Csus4 C CsusC C5 Bb F/A C
 Q Q Q +E E E E E E E E Q Q Q Q Q Q Q Q +E E
|-5--5--5--(5)---|----------------|-------------|----------------|
|----------------|----------------|-------------|----------------|
|----------------|-3---3---3---3--|-1--1--------|-3--3--3--(3)---|
|--------------3-|---3---3---3----|-------1--1--|--------------3-|

 Csus4 C CsusC C5 Bb F/A C
 Q. E Q. E E +Q E E +E Q Q. E Q. E E E E E Q Q
|--------5------|-5-(5)----5-(5)----|---------------|---------------||
|------5------5-|--------5-------5--|---------------|---------------||
|-3-------------|-------------------|-1----1--------|-3-3-3-3-3--3--||
|---------------|-------------------|--------1----1-|---------------||

 Bridge
 F5G5 F5G5 F5G5 F5G5 F5 F5G5 F5G5 F5
 E Q E Q. E E Q E E E Q E Q E Q. E Q. E E E E E
||------------------|---------------|---------------|-----------------|
||o-----------------|---------------|---------------|-----------------|
||o-----------------|--------1-3----|---------------|-----------------|
||--1-3--1-3----(0)-|-1-3--1-----1--|-1-3--1-3----3-|-1----1-1-1-1-1--|

 Verse 3
 C Csus4 C Csus2 C C5 Bb F/A
 E E E E E E E E 4x H Q. E E E a E +E E E Q E E Q Q. E
|------------------||-------------|-5---5s7-(7)-5------|---------------|
|-----------------o||-----------5-|---5-----------7-5--|---------------|
|-----------------o||-3----3------|--------------------|-1-1-1---------|
|-1-1-1-1-1-1-1-1--||-------------|--------------------|--------1----1-|

 C Csus4 C CsusC C5 Bb F/A
 E E E E E E E E E E e E Q. E E E E E E E E E H Q. E
|-----------------|----------------|-----------------|-------------|
|-----------------|----------------|-----------------|-------------|
|-3-3-3h5-3h5-3---|-3-3-3---3------|-3-3-3---3-3-3---|-1-----------|
|---------------3-|--------------3-|-------3-------3-|------1----1-|

 C Bb F/A Bb
 Q Q Q +E E W W W
|----------------|----------|----------|------|
|----------------|----------|----------|------|
|-3--3--3--(3)-3-|-1--------|----------|-1----|
|----------------|----------|-5--------|------|

 F/A C Csus4 C CsusC C5 Bb F/A
 E E E E E E E E H. +E E E E E E E E Q Q. E Q. E
|-----------------|---------------|----------------|---------------|
|-3---3---3---3---|---------------|----------------|---------------|
|-----------------|-3-------(3)---|-3---3h5-3h5-3--|-1----1--------|
|---1---1---1---1-|-------------3-|---3------------|--------1----1-|

 Outro
 C CsusC CsCs2 Bb F/A
 E E E E E E E E Q Q Q +E E E E E E E E Q E E E E Q. E
|-----------------||----------------|-----------------|----------------|
|-----------------||----------------|-----------------|----------------|
|-3-3-3-3-3-3-3-3-||-3--3--3--(3)---|-3---3---3---3--|-1-1-1-1--------|
|-----------------||--------------3-|---3---3---3-----|---------1----1-|

 C CsusC CsCs2 Bb F/A
 E E E Q. E E Q Q Q +E E E E E E E E Q E E E E Q. E
|----------------|----------------|----------------|----------------|
|----------------|----------------|----------------|----------------|
|-3-3-3-3----3-3-|-3--3--3--(3)---|-3---3---3---3--|-1-1-1-1--------|
|----------------|--------------3-|---3---3---3----|---------1----1-|

 C CsusC CsCs2 Bb F/A
 E E e E E E Q Q Q Q +E E E E E E E E E E E E E E Q. E
|--------------------|----------------|-------------/5-5-|----------------|
|--------------------|----------------|-5---5---5-5------|----------------|
|-3-3-3---10-10-10--|-3--3--3--(3)-3-|---3---3----------|-1-1-1-1--------|
|--------------------|----------------|------------------|---------1----1-|

 C CsusC CsCs2
 E E e E Q Q E E Q E E Q E E E E E E E E
|---------------|--------5p3h5--|-----------------|
|---------------|---------------|-5---5---5---5---|
|-3-3-3---3-----|-3-3-3---------|---3---3---3---3-|
|------------5--|---------------|-----------------|

 Bb F/A C
 E E Q E E Q E E q Q. E
|---------------|---------------*|
|---------------|---------------*|
|-1---1---------|-3-3-3--3------*|
|---1----1-1-1--|-------------3-*|


Friends Site Uriah Heep
     



     
     
     
     
     
     
     
     
     
     
     
     
     
     
     
     
     
     
     
     
     
     
     
     
     
     
     
     
    Ken Hensley. He Came To Us One Evening....
     

 

 

Unofficial Russian Fan Site Uriah Heep 2007 © 2017